Muito mais que só letras de músicas

  • Vagalume
  • A-Z
  • Estilos
  • Top 100
  • Playlists
  • Hot Spots
  • Notícias
  • PLAY

    Instrumento:
    Intro
    e--------------------------------------------------------------------------------------------
    B--------------------------------------------------------------------------------------------
    G--------------------------------------------------------------------------------------------
    D---------------------4h6-4-----------------4h6---------------------4h6-4------------------*--
    A-4h6-6-6-6-4-4-4h6-4-------6-6-6-4-4-4h6-4-----4h6-6-6-6-4-4-4h6-4-------6-6-6-4-4h3h2h1h0--
    E--------------------------------------------------------------------------------------------
    
    Refrão
    e---------------------------------------
    B---------------------------------------
    G---------------------------------------(4 VEZES)
    D-----------------------5-5-5-----------
    A-----------------------3-3-3-5-5-4-4---
    E-0h2-2-2-2-0-2-3-2-2-2-------3-3-2-2---
    
    Depois do 2º refrão tem uma parte assim
    e------------------------
    B------------------------
    G------------------------(7 VEZES)
    D--------------*---------
    A-5h7-7-7-7h(5)--5-4-5---
    E----------------3-2-3---
    
    No final faz assim
    e----------------------
    B----------------------
    G----------------------
    D--------------*-------
    A-5h7-7-7-7h(5)--5-4---
    E----------------3-2---
    
             *
    4h3h2h1h0  =escorrega a mão pelas notas e deixa a nota 0 tocar sozinha.
    Não dê palhetada para tocá-la.
       *
    (5)  =a nota não precisa ser tocada, mas se for ficará mais legal.
    Música tocada no tom normal.
    h =slide. Mesmo que escorregar.
    


    Comente
    user 300 caracteres restantes. Enviar

    Todas as letras de Charlie Brown Jr

    Publicidade
    Notícias
    Mais notícias »
    Hot Spot
    Top Músicas do Vagalume
    Top 100 »

    As informações deste site são postadas integralmente pelos usuários. É importante dizer que é possível que os dados estejam desatualizados ou incorretos, sendo assim, o Vagalume exime-se de qualquer responsabilidade sobre as informações publicadas.Caso haja interesse em remover ou alterar alguma informação, entre em contato conosco.


    É permitida somente a visualização no site das letras de músicas encontradas aqui, vedada sua reprodução através de quaisquer outros meios (Lei 9610/98).Todas as letras de músicas são propriedade dos seus respectivos autores e divulgadas somente para fins educacionais.All lyrics are property and copyright of their owners. All lyrics are provided for educational purposes only.