Muito mais que só letras de músicas

  • Vagalume
  • A-Z
  • Estilos
  • Top 100
  • Playlists
  • Hot Spots
  • Notícias
  • PLAY

    Instrumento:
    é a intro...mas a de baixo que o Bruno já tinha colokado antes taí 
    também pra quem se simpatiza com o baixão!!
    
    CHARLIE BROWN NA VEIA!!!
    
    Riff 1:
     e|-------------------------|-------------------------|
     B|-------------------------|-------------------------|
     G|-------------------------|-------------------------|  
     D|-------------------------|-------------------------|
     A|----------5--3-----------|----------3--1-----------|
     E|-5--3--5--------5--3--1--|-5--3--5--------5--6--5--|
    
    
      Intro: 4x Riff 1, 2x Riff 2 (Continuando a fazer o Riff 1), 2x Riff 1 
    
    
    
    
    Riff 1: (Baixo)
    
     |---------------6-4-------|---------4-2-1h2p1----------------------|  
     |-------6--5--6-6---6-4---|---4-2-4-2-4-------4--------------------|   
     |----4------------------4-|-4-------------------------------------|
     |-5-----------------------|----------------------------------------|
    
    
     Riff 2: (Solo 1)
    
     e|-------0------------------------------------------------|
     B|-2--0-----4--2------------------------2--0-----------0--|
     G|----------------4--1-----1---------1--------1-----1-----|  
     D|----------------------4---------4--------------4--------|
     A|----------------------------4---------------------------|
     E|--------------------------------------------------------|
    
     e|--------------------------------------------------------|
     B|----2-----------------------0--2--4--5--4--0-----0--0h2-|
     G|----------2--2-----2--------------------------1---------|
     D|-2-----4--------4-----4---------------------------------|
     A|-------------------------4------------------------------|
     E|--------------------------------------------------------|
    
     
    Riff 3: (Refrão)
     
     B|-12-----12-----12-----9-----9-----10-----12-----12-----12-----9-----9-----10------|
     G|-----9------9------9-----9-----9------9------9------9------9-----9-----9------9---|
     
    
     B|-12-----12-----12-----9-----9-----10-----12-----12-----12-----9-----9-----9h10--9-|
     G|-----9------9------9-----9-----9------9------9------9------9-----9-----9----------|
    
    
     Riff 4: (Solo 2)
    
     e|----------------------------------------------------------------------------------|
     B|-10/12--10--9--10/12--10--9--------10/12--10--9--------------------5/7--7/9--7/5--|
     G|-----------------------------9--6----------------9--6--4--4--6--4-----------------|
     D|----------------------------------------------------------------------------------|
     A|----------------------------------------------------------------------------------|
     E|----------------------------------------------------------------------------------|
    
     e|----------------------------------------------------------------------------------|
     B|-------------------5/7--7/9--7/5-----------------5--4-----------------------------|
     G|-6--6--4--4--6--4-----------------4--4--4--4--4--------4/6--------------4/6-------|
     D|------------------------------------------------------------6--2--4--2-------4--2-|
     A|----------------------------------------------------------------------------------|
     E|----------------------------------------------------------------------------------|
    
     e|----------------------------------------------------------------------------------|
     B|------------------------------------------10/12--10--9-----10/12--10--9-----------|
     G|----4/6--------------4/6--6/8--8/9--9/11----------------9----------------9--6-----|
     D|-4-------6--2--4--2---------------------------------------------------------------|
     A|----------------------------------------------------------------------------------|
     E|----------------------------------------------------------------------------------|
    
     e|----------------------------------------------------------------------------------|
     B|-10/12--10--9--------------------5/7--7/9--7/5--------------------5/7--7/9--7-----|
     G|---------------9--6--4--4--6--4-----------------6--6--4--4--6--4------------------|
     D|----------------------------------------------------------------------------------|
     A|----------------------------------------------------------------------------------|
     E|----------------------------------------------------------------------------------|
    
     e|-7-----7--12--11--7--12--11--7-----7--14--12--9--14--12--9--9--12--14--14/16------|
     B|----7---------------------------9-------------------------------------------------|
     G|----------------------------------------------------------------------------------|
     D|----------------------------------------------------------------------------------|
     A|----------------------------------------------------------------------------------|
     E|----------------------------------------------------------------------------------|
    
    
    
    Riff 1
    Um belo sonho veio então despertar minha vontade
    tudo vale a pena para te reencontrar
    me livrei de tudo aquilo e consegui mudar
    tudo que foi feito em troca de uma
    amizade a mais / mas felicidade é poder estar com
    quem voce gosta em algum lugar, é foda
    ser louco, advogado do mundo mas, como tudo deve ser?
    é foda ser taxado de doido vagabundo mas, como tudo deve ser?
    
    Riff 3
    Foi quando te encontrei
    ouvindo um som e olhando o mar
    Foi quando te encontrei
    ouvindo o som do mar rolar     
    
    Riff 1
    Eu não nasci ontem, bem como, quando e por onde mas
    como tudo deve ser, com as balizas do nosso sistema 
    Sigo imprimindo meu sonho na história como tudo deve ser 
    Um belo sonho veio então despertar minha vontade 
    Tudo vale a pena para te reencontrar 
    Me livrei de tudo aquilo e consegui mudar 
    Tudo que foi feito em troca de uma amizade mas
    
    
    Riff 3
    Foi quando te encontrei
    ouvindo um som e olhando o mar
    Foi quando te encontrei
    ouvindo o som do mar rolar     
    
    Riff 2 (2x)
    
    Riff 1
    Eu não preciso de promessas e acho que você também
    Eu não tento ser perfeito e acho que você também
    Dias e noites pensando no que fiz eu sou um vencedor eu lutei pelo que quis
    Mas quando não se pode mais mudar, tanta coisa errada 
    Vamos viver nossos sonhos, temos tão pouco tempo
    
    
    Riff 3
    Foi quando te encontrei
    ouvindo o som e olhando o mar
    Foi quando te encontrei
    ouvindo o som do mar rolar     
    
    Riff 4
    
    Riff 3  
    Foi quando te encontrei
    ouvindo o som e olhando o mar     (2x)                                 
    Foi quando te encontrei
    ouvindo o som do mar rolar


    Comente
    user 300 caracteres restantes. Enviar

    Todas as letras de Charlie Brown Jr

    Publicidade
    Notícias
    Mais notícias »
    Hot Spot
    Top Músicas do Vagalume
    Top 100 »

    As informações deste site são postadas integralmente pelos usuários. É importante dizer que é possível que os dados estejam desatualizados ou incorretos, sendo assim, o Vagalume exime-se de qualquer responsabilidade sobre as informações publicadas.Caso haja interesse em remover ou alterar alguma informação, entre em contato conosco.


    É permitida somente a visualização no site das letras de músicas encontradas aqui, vedada sua reprodução através de quaisquer outros meios (Lei 9610/98).Todas as letras de músicas são propriedade dos seus respectivos autores e divulgadas somente para fins educacionais.All lyrics are property and copyright of their owners. All lyrics are provided for educational purposes only.