Muito mais que só letras de músicas

  • Vagalume
  • A-Z
  • Estilos
  • Top 100
  • Playlists
  • Hot Spots
  • Notícias
  • PLAY

    Instrumento:
    Tom: G 
    
    Intr.: G Cadd9
    
    Esse riff é tocado junto com os acordes(G,Cadd9)
    E|-3-3-3-3-3-3---------3-3-2---------------3-3-3-3-3-----------3-3-3------------------|
    B|-3-3-3-3-3-3---------3-3-3---------------3-3-3-3-3-----------3-3-3------------------|
    G|-0-0-0-0-0-0---------0-0-0---------------0-0-0-0-0-----------0-0-0------------------|
    D|-0-0-0-0-0-0-----0---2-2-2-2-0---2-0-----0-0-0-0-0-------0---2-2-2-0h2p0----2-0-----|
    A|-2-2-2-2-2-2---2---3-3-3-3-----0-----2-0-2-2-2-2-2---0-2---3-3-3-3-------0------2-0-|
    E|-3-3-3-3-3-3-3---------------------------3-3-3-3-3-3--------------------------------|
    
    G 
    Belos e malditos  
    Cadd9
    Feitos para o prazer 
    G 
    Os últimos a sair 
    Cadd9 
    Os primeiros a morrer 
    G 
    Belos e malditos 
    Cadd9 
    Eles ou ninguém 
    G 
    De carne quase sempre 
    Cadd9 
    São anjos para alguém 
    G                     Cadd9 
    São anjos para alguém... 
    
    G Cadd9 G Cadd9 
    Riff da vocalização.
    E|-3...3s5-5-3-3...3s7-7-5-|
    B|-3...3s5-5-3-3...3s7-7-5-|
    G|-0...--------0...--------|
    D|-0...--------2...--------|
    A|-2...--------3...--------|
    E|-3...--------------------|
    
    
    Na hora do (D) tem esse riffzinho
    E|-2-2-3-2---3-2----3-2---|
    B|-3-3-----3------------3-|
    G|-2-2-----------2--------|
    D|------------------------|
    A|------------------------|
    E|------------------------|
    
    Em    Cadd9 
    Suave é 
    Em    Cadd9 
    Suave é 
    Em      Cadd9 
    A noite é 
    Em        Cadd9 D 
    De bar em bar 
    Cadd9           D 
    De bar em bar 
    Cadd9 
    De bar em bar 
    
    Toda vez que for mudar para(G) tem esse riff
    E|-3-------3-|
    B|-3-------3-|
    G|-0-------0-|
    D|-2-0-----0-|
    A|-3---2---2-|
    E|-------0-3-|
    
    G 
    Belos e malditos 
    Cadd9 
    Culpados por viver 
    G
    Num mundo feito de tédio 
    Cadd9 
    Cego para o poder 
    G 
    Belos e malditos 
    Cadd9 
    Drama e carnaval 
    G 
    O lado escuro do paraíso 
    Cadd9 
    O bem que vem do mal 
    G                    Cadd9 
    O bem que vem do mal... 
    
    G Cadd9 G Cadd9 
    Riff da vocalização.
    E|-3...3s5-5-3-3...3s7-7-5-|
    B|-3...3s5-5-3-3...3s7-7-5-|
    G|-0...--------0...--------|
    D|-0...--------2...--------|
    A|-2...--------3...--------|
    E|-3...--------------------|
    
    Na hora do (D) tem esse riffzinho
    E|-2-2-3-2---3-2----3-2---|
    B|-3-3-----3------------3-|


    Comente
    user 300 caracteres restantes. Enviar

    Todas as letras de Capital Inicial

    Publicidade
    Notícias
    Mais notícias »
    Hot Spot
    Top Músicas do Vagalume
    Top 100 »

    As informações deste site são postadas integralmente pelos usuários. É importante dizer que é possível que os dados estejam desatualizados ou incorretos, sendo assim, o Vagalume exime-se de qualquer responsabilidade sobre as informações publicadas.Caso haja interesse em remover ou alterar alguma informação, entre em contato conosco.


    É permitida somente a visualização no site das letras de músicas encontradas aqui, vedada sua reprodução através de quaisquer outros meios (Lei 9610/98).Todas as letras de músicas são propriedade dos seus respectivos autores e divulgadas somente para fins educacionais.All lyrics are property and copyright of their owners. All lyrics are provided for educational purposes only.