Muito mais que só letras de músicas

  • Vagalume
  • A-Z
  • Estilos
  • Top 100
  • Playlists
  • Hot Spots
  • Notícias
  • PLAY

    Instrumento:
    |---7---------------------------------------------------------------------------|
    |-9---9---9---------------------------------------------------------9----------|
    |--------8---8----8-----------------------------9------9-11-9-11---11--9---|
    |---------------9----9---------------11--9--11---11--------------------------|
    |-----------------------11-—9--11---------------------------------------------|
    |--------------------------------------------------------------------------------|
    
    Baixo 5 Cordas                            
    |--------------------|   |-------------------|    
    |--------------------|   |-------------------|        
    |--------------------|2x|-------------4/2--|2x Junto com a Guitarra 1
    |-4-4-4-4-4-4-2/0-|   |-------------------|    
    |--------------------|   |-2-2-2-2-2-2-----|    
    
    Baixo 4 cordas
    
    |--------------------|   |--------------------|
    |--------------------|   |-------------11/9--|
    |--------------------|2x|--------------------|2x Junto com a Guitarra 1
    |-4-4-4-4-4-4-2/0-|   |-9-9-9-9-9-9------|
    
    Guitarra 2
    
    |---------------------------------------------------------|
    |-4-4---4------------------------------------------------|
    |------6---6-4-4-3-4-3--6-----6-----6-----6----6-----|4x
    |---------------------------6-----6-----6-----6----6----|
    |----------------------------7-----7-----7-----7----7---|
    |---------------------------------------------------------|


    Comente
    user 300 caracteres restantes. Enviar

    Todas as letras de CSS

    Publicidade
    Notícias
    Mais notícias »
    Hot Spot
    Top Músicas do Vagalume
    Top 100 »

    As informações deste site são postadas integralmente pelos usuários. É importante dizer que é possível que os dados estejam desatualizados ou incorretos, sendo assim, o Vagalume exime-se de qualquer responsabilidade sobre as informações publicadas.Caso haja interesse em remover ou alterar alguma informação, entre em contato conosco.


    É permitida somente a visualização no site das letras de músicas encontradas aqui, vedada sua reprodução através de quaisquer outros meios (Lei 9610/98).Todas as letras de músicas são propriedade dos seus respectivos autores e divulgadas somente para fins educacionais.All lyrics are property and copyright of their owners. All lyrics are provided for educational purposes only.