Muito mais que só letras de músicas

  • Vagalume
  • A-Z
  • Estilos
  • Top 100
  • Playlists
  • Hot Spots
  • Notícias
  • PLAY

    Instrumento:
    Tablatura de Guitarra 
    --------------------------------
    
    Intro
    E|-----------------------------------|
    B|-----------------------------------|
    G|-66666666666666666666666666666666--|
    D|-xxxxxxxxxxxxxxxxxxxxxxxxxxxxxxxx--|
    A|-44444444444444444444444444444444--|
    E|-----------------------------------|
    
    E|-----------------------|
    B|-----------------------|
    G|--------------------6--|
    D|-444-6-7777777-6-7--6--|
    A|-444-6-7777777-6-7--4--|
    E|-222-4-5555555-4-5-----|
    
    E|-------------------------|
    B|-------------------------|
    G|----------------------6--|
    D|-444-6-77777777-6-7---6--|
    A|-444-6-77777777-6-7---4--|
    E|-222-4-55555555-4-5------|
    faça 4 vezes e depois...
    
    E|--------------------------|
    B|--------------------------|
    G|--------------------------|
    D|-444-6-77---------77------|
    A|-444-6-77----444--55--44--|
    E|-222-4-55----222--^^--22--|
                   ^^^      ^^
    ^=palm mute
    
    Verse
    E|-----------------------|
    B|-----------------------|
    G|-----------------------|
    D|-2222222-------77------|
    A|-0000000--444--55--44--|
    E|-^^^^^^^--222--^^--22--|
                ^^^      ^^
    ^=palm mute
    
    faça isso antes do refrao
    E|-------------------|
    B|-------------------|
    G|-6666666666666666--|
    D|-xxxxxxxxxxxxxxxx--|
    A|-4444444444444444--|
    E|-------------------|
    
    Refrao
    E|----------------------------------------|
    B|----------------------------------------|
    G|------------------------------------77--|
    D|-7777777777777777--66666666--44444--77--|
    A|-7777777777777777--77777777--44444--55--|
    E|-5555555555555555--44444444--22222------|
    
    Interlude
    E|-------------------------------|
    B|-------------------------------|
    G|-------------------------------|
    D|-4-4-4/6--7----11-11-11/12--7--| x6
    A|-x-x-x-x--x----x--x--x--x---x--|
    E|-2-2-2/4--5----9--9--9/-10--5--|
    
    Não sei ao certo c está correta (acredito que sim), mas eu consigo tocá-la numa boa com essas notas. Boa Diversao.
    
    ----------------------------------------------------
    Colaboração: Vitor Fernandes (PunkUser)


    Comente
    user 300 caracteres restantes. Enviar

    Todas as letras de Box Car Racer

    Publicidade
    Notícias
    Mais notícias »
    Hot Spot
    Top Músicas do Vagalume
    Top 100 »

    As informações deste site são postadas integralmente pelos usuários. É importante dizer que é possível que os dados estejam desatualizados ou incorretos, sendo assim, o Vagalume exime-se de qualquer responsabilidade sobre as informações publicadas.Caso haja interesse em remover ou alterar alguma informação, entre em contato conosco.


    É permitida somente a visualização no site das letras de músicas encontradas aqui, vedada sua reprodução através de quaisquer outros meios (Lei 9610/98).Todas as letras de músicas são propriedade dos seus respectivos autores e divulgadas somente para fins educacionais.All lyrics are property and copyright of their owners. All lyrics are provided for educational purposes only.