Muito mais que só letras de músicas

  • Vagalume
  • A-Z
  • Estilos
  • Top 100
  • Playlists
  • Hot Spots
  • Notícias
  • PLAY

    Instrumento:
    C#m       D        G        A        E        B       C#
           -----    -----    -----    -----    -----    -----   ----
          |--4--|  |--0--|  |--3--|  |--0--|  |--0--|  |--2--|  |--4--|
          |--4--|  |--0--|  |--2--|  |--0--|  |--2--|  |--2--|  |--4--|
          |--6--|  |--0--|  |--0--|  |--2--|  |--2--|  |--4--|  |--6--|
          |--6--|  |--3--|  |--0--|  |--2--|  |--1--|  |--4--|  |--6--|
          |--5--|  |--2--|  |--0--|  |--2--|  |--0--|  |--3--|  |--4--|
          |--4--|  |--3--|  |--3--|  |--0--|  |--0--|  |--2--|  |--4--|
    Introdução ( entra após rit da bateria)
    E--A--C#m-B-A            obs: de C#m pra B é meia batida só, por isso tem um - só!
    
    Solo Inicial
    e|----------------------|
    B|-7--9--10--9--7--5-5--|
    G|----------------------|2X       (A 2ª vez deve ser seguida com o tempo da música... 
    D|----------------------|          basta ouvir a música para entender)         
    A|----------------------|
    E|----------------------|
    
    C#m
    this romeo is bleeding
    B
    but you can't see his blood
    A
    it's nothing but some feelings
              G#              B
    that this old dog kicked up
    
    C#m
    it's been raining since you left me
              B
    now I'm drowning in the flood
    A
    you see I've always been a fighter
           G#               A-B-C#m
    but without you I give up
    
    C#m
    now I can't sing a love song
              B
    like the way it's meant to be
    A
    well, I guess I'm not that good anymore
         B                 A-B
    but baby, that's just me
    
    Refrão:      
    E             B      
    yeah, I will love you
    A        C#m   B 
    baby   Always
    
    E                     B             A  
    and I'll be there forever and a day 
    C#m   B
    Always
    E
    I'll be there till the stars don't shine
                 B
    till the heavens burst and
    
    the words don't rhyme
                A
    and I know when I die, you'll be on my mind
              B
    and I'll love you 
    A-B-C#m
    Always
    Solo inicial ( aqui é feito por teclado mas pode fazer na guitarra) 1X
    
    C#m
    now you're pictures that you left behind
    B
    are just memories of a different life
    A
    some that made us laugh, some that made us cry
                    G#                B                                          
    one that made you have to say goodbye
    C#m
    what I'd give to run my fingers through your hair
                  B     
    to touch your lips, to hold you near
    A              
    when you say your prayers try to understand
              G#                     A-B-C#m
    I've made mistakes, I'm just a man
    
    C#m
    when he holds you close, when he pulls you near
                     B
    when he says the words you've been needing to hear
    A
    I'll wish I was him `cause those words are mine
                   B                 A-B
    to say to you till the end of time
    
    Refrão
    E             B      
    yeah, I will love you
    A       C#m   B 
    baby  Always
    E                    B              A  
    and I'll be there forever and a day 
    C#m   B
    Always
    
    D                  G                 (aqui entra em powerchords com 3 batidas abafadas    
    if you told me to cry for you         e 1 normal até...
    A     
    I could
    D                   G         A
    if you told me to die for you
        B
    I would
             A           G  ...................................aqui)
    take a look at my face
               F#m               A
    there's no price I won't pay
    
    to say these words to you
    
    
    Solo
    e|-----------------------------------|        No Solo, a guitarra ritmo fica assim:
    B|-----------------------------------|        E--B--F#m--C#m-B
    G|-----4-6-----4-6-------------------|        E--B--A--B--A--B-A    1 "-" = ¹/2 batida 
    D|-4h6-----4h6-----4h6-4h6-4-2-4-----|                      
    A|-------------------------------2-2-|
    E|-----------------------------------|
    
    e|---------------------------------------------------------------|
    B|---------------------------------------------------------------|
    G|---------------------------------------------------------------|
    D|---------2-4/6-4-2-------2-4/6-4-2--------2-4/6-4-2---2-4/6-4--|
    A|-----2-4-----------4-2-4------------4-2-4-----------4----------|
    E|-2/4-----------------------------------------------------------|
    
    e|--9/12-129-97-7/12-129-97-7------------7/9-|
    B|--9/12-129-97-7/12-129-97-7--7/9-7-5-7-----|
    G|-----------------------------------------------|
    D|-----------------------------------------------|
    A|-----------------------------------------------|
    E|-----------------------------------------------|
    
    e|-12-12-12-12-12----12-12----12-12-12-12---------12-15-14-12-14-17-16----|
    B|-12-14-12-14-12----14-12----14-14-14-12---12-14----------------------14-|
    G|----------------13-------13-------------13------------------------------|
    D|------------------------------------------------------------------------|
    A|------------------------------------------------------------------------|
    E|------------------------------------------------------------------------|
    
    A
    well, there ain't no luck
    
    in these loaded dice
          B
    but baby if you give me just one more try
             C#m
    we can pack up our old dreams
    
    and our old lives
            A         B                    B
    we'll find a place where the sun still shines
    
    E             B      
    yeah, I will love you
    A       C#m   B 
    baby  Always
    
    E                    B              A  
    and I'll be there forever and a day
    Solinho
    e|-------------|
    B|-8-8--7-6----|
    G|-------------|                 (Esse solo é quase imperceptível, mas é mais ou menos 
    D|-------------|                   assim...)  
    A|-------------|
    E|-------------|
    C#m   B
    Always
    E
    I'll be there till the stars don't shine
                 B
    till the heavens burst and
    
    the words don't rhyme
                A
    and I know when I die, you'll be on my mind
              B
    and I'll love you 
    A-B-C#m
    Always
    
    Finaliza com solo


    Comente
    user 300 caracteres restantes. Enviar

    Todas as letras de Bon Jovi

    Publicidade
    Notícias
    Mais notícias »
    Hot Spot
    Top Músicas do Vagalume
    Top 100 »

    As informações deste site são postadas integralmente pelos usuários. É importante dizer que é possível que os dados estejam desatualizados ou incorretos, sendo assim, o Vagalume exime-se de qualquer responsabilidade sobre as informações publicadas.Caso haja interesse em remover ou alterar alguma informação, entre em contato conosco.


    É permitida somente a visualização no site das letras de músicas encontradas aqui, vedada sua reprodução através de quaisquer outros meios (Lei 9610/98).Todas as letras de músicas são propriedade dos seus respectivos autores e divulgadas somente para fins educacionais.All lyrics are property and copyright of their owners. All lyrics are provided for educational purposes only.