Muito mais que só letras de músicas

  • Vagalume
  • A-Z
  • Estilos
  • Top 100
  • Playlists
  • Hot Spots
  • Notícias
  • PLAY

    Instrumento:
    Atenção à montagem dos acordes: 
    
     C5  G5   Am   F5 
    ----------------- 
    ----------------- 
    --5-------2------ 
    --5---5---2---3-- 
    --3---5---0---3-- 
    ------3-------1-- 
    
    Riff: 
    e|-----------------------------------------------
    B|-----------------------------------------------
    G|-----------------------------------------------
    D|------------2----------2-----------2------2-2-- 
    A|--3-3--5-5--------5-5----------5-5------------5 
    E|-------------3-3--------5-5----------1-1------- 
    
    
    Intro: Riff 4x 
    
    C5           G5          Am              F5 
    It's alright to tell me what you think about me 
    C5          G5        Am          F5 
    I won't try to argue or hold it against you 
    C5          G5            Am             F5 
    I know that your leavin' you must have your reasons 
    C5         G5          Am             F5 
    the season is calling your pictures are falling down 
    
    Riff 2x 
    
    (C5 G5 Am F5)
    The steps that I retrace the sad look on your face  
    the timing and structure did you hear he f*cked her 
    a day late a buck short I'm writing the report 
    on losing and failing when I move I'm flailing now 
    
    
    C5                          G5                   Am 
       And it's happened once again I'll turn to a friend 
                         F5                                  C5        
       Someone that understands and sees through the master plan 
                       G5                               Am 
       but everybody's gone and I've been here for too long 
                          F5     
       to face this on my own well I guess this is growing up 
    
    Riff 2x 
    
    (C5 G5 Am F5)
    And maybe I'll see you at a movie sneek preview 
    You'll show up and walk by on the arm of that guy 
    and I'll smile and you'll wave we'll pretend it's ok 
    this charade it won't last when he's gone I won't come back 
    
    C5                          G5                   Am 
       And it's happened once again I'll turn to a friend 
                         Fm                                  C5        
       Someone that understands and sees through the master plan 
                       G5                               Am 
       but everybody's gone and I've been here for too long 
                          F5     
       to face this on my own well I guess this is growing up 
    
    Solo: 
    
    ------------------------------------------ 
    -5---3-5---5----3-5--3-5--5---3-5--5---3-- 
    --5-----5---5------5----5--5-----5--5----- 
    ---5---------5--------------5--------5---- 
    ------------------------------------------ 
    ------------------------------------------ 
    
    Toca o Riff 2x, depois um C5 e fade out nele...
    
    
    Versão 2:
    
    E||------------------------|-----------------------|-----------------------|
    B||------------------------|-----------------------|-----------------------|
    G||*-----------------------|-----------------------|-----------------------|
    D||*----------0----0--2----|----------0----0--2----|----------0----0--2----|
    A||---3----3---------------|-----------------------|--0----0---------------|
    E||------------------------|--3----3---------------|-----------------------|
    
    
                                                                               
    ------------------------||------------------------|-----------------------|
    ------------------------||------------------------|-----------------------|
    -----------------------*||*-----------------------|-----------------------|
    ----------2----2--0----*||*----------0----0--2----|----------0----0--2----|
    ------------------------||---3----3---------------|-----------------------|
    --1----1----------------||------------------------|--3----3---------------|
    
    
                                                        C5                      
    -----------------------|------------------------||-------------------------|
    -----------------------|------------------------||-------------------------|
    -----------------------|-----------------------*||--5----------------------|
    ----------0----0--2----|----------2----2--0----*||--5----------------------|
    --0----0---------------|------------------------||--3----3--3--3--3--3--3--|
    -----------------------|--1----1----------------||-------------------------|
    
    
      G5                        A5                        F5                      
    -------------------------|-------------------------|-------------------------|
    -------------------------|-------------------------|-------------------------|
    -------------------------|-------------------------|-------------------------|
    --5----------------------|--7----------------------|--3----------------------|
    --5----------------------|--7----------------------|--3----------------------|
    --3----3--3--3--3--3--3--|--5----5--5--5--5--5--5--|--1----1--1--1--1--1--1--|
    
    
      C5                        G5                        A5                      
    -------------------------|-------------------------|-------------------------|
    -------------------------|-------------------------|-------------------------|
    --5----------------------|-------------------------|-------------------------|
    --5----------------------|--5----------------------|--7----------------------|
    --3----3--3--3--3--3--3--|--5----------------------|--7----------------------|
    -------------------------|--3----3--3--3--3--3--3--|--5----5--5--5--5--5--5--|
    
    
      F5                          C5                      G5                    
    -------------------------||------------------------|-----------------------|
    -------------------------||------------------------|-----------------------|
    -------------------------||*--5----5--5----5--5----|-----------------------|
    --3----------------------||*--5----5--5----5--5----|--5----5--5----5--5----|
    --3----------------------||---3----3--3----3--3----|--5----5--5----5--5----|
    --1----1--1--1--1--1--1--||------------------------|--3----3--3----3--3----|
    
    
      A5                      F5                                               
    -----------------------|------------------------||------------------------|
    -----------------------|------------------------||------------------------|
    -----------------------|-----------------------*||*-----------------------|
    --7----7--7----7--7----|--3----3--3----3--3----*||*----------0----0--2----|
    --7----7--7----7--7----|--3----3--3----3--3-----||---3----3---------------|
    --5----5--5----5--5----|--1----1--1----1--1-----||------------------------|
    
    
                                                                              
    -----------------------|-----------------------|------------------------||
    -----------------------|-----------------------|------------------------||
    -----------------------|-----------------------|-----------------------*||
    ----------0----0--2----|----------0----0--2----|----------2----2--0----*||
    -----------------------|--0----0---------------|------------------------||
    --3----3---------------|-----------------------|--1----1----------------||
    
    
      C5                        G5                        A5                      
    -------------------------|-------------------------|-------------------------|
    -------------------------|-------------------------|-------------------------|
    --5----------------------|-------------------------|-------------------------|
    --5----------------------|--5----------------------|--7----------------------|
    --3----3--3--3--3--3--3--|--5----------------------|--7----------------------|
    -------------------------|--3----3--3--3--3--3--3--|--5----5--5--5--5--5--5--|
    
    
      F5                        C5                        G5                      
    -------------------------|-------------------------|-------------------------|
    -------------------------|-------------------------|-------------------------|
    -------------------------|--5----------------------|-------------------------|
    --3----------------------|--5----------------------|--5----------------------|
    --3----------------------|--3----3--3--3--3--3--3--|--5----------------------|
    --1----1--1--1--1--1--1--|-------------------------|--3----3--3--3--3--3--3--|
    
    
      A5                        F5                          C5                    
    -------------------------|-------------------------||------------------------|
    -------------------------|-------------------------||------------------------|
    -------------------------|-------------------------||*--5----5--5----5--5----|
    --7----------------------|--3----------------------||*--5----5--5----5--5----|
    --7----------------------|--3----------------------||---3----3--3----3--3----|
    --5----5--5--5--5--5--5--|--1----1--1--1--1--1--1--||------------------------|
    
    
      G5                      A5                      F5                      
    -----------------------|-----------------------|------------------------||
    -----------------------|-----------------------|------------------------||
    -----------------------|-----------------------|-----------------------*||
    --5----5--5----5--5----|--7----7--7----7--7----|--3----3--3----3--3----*||
    --5----5--5----5--5----|--7----7--7----7--7----|--3----3--3----3--3-----||
    --3----3--3----3--3----|--5----5--5----5--5----|--1----1--1----1--1-----||
    
    
      C5                                           
    ----------------------------------------------|
    ----------------------------------------------|
    --5----5--5--5--------5--5--5--5--5--5--5--5--|
    --5----5--5--5--------5--5--5--5--5--5--5--5--|
    --3----3--3--3--------3--3--3--3--3--3--3--3--|
    ----------------------------------------------|
    
    
      G5                                           
    ----------------------------------------------|
    ----------------------------------------------|
    ----------------------------------------------|
    --5----5--5--5--------5--5--5--5--5--5--5--5--|
    --5----5--5--5--------5--5--5--5--5--5--5--5--|
    --3----3--3--3--------3--3--3--3--3--3--3--3--|
    
    
      A5                                           
    ----------------------------------------------|
    ----------------------------------------------|
    ----------------------------------------------|
    --7----7--7--7--------7--7--7--7--7--7--7--7--|
    --7----7--7--7--------7--7--7--7--7--7--7--7--|
    --5----5--5--5--------5--5--5--5--5--5--5--5--|
    
    
      F5                                           
    ----------------------------------------------|
    ----------------------------------------------|
    ----------------------------------------------|
    --3----3--3--3--------3--3--3--3--3--3--3--3--|
    --3----3--3--3--------3--3--3--3--3--3--3--3--|
    --1----1--1--1--------1--1--1--1--1--1--1--1--|
    
    
      C5                                           
    ----------------------------------------------|
    ----------------------------------------------|
    --5----5--5--5--------5--5--5--5--5--5--5--5--|
    --5----5--5--5--------5--5--5--5--5--5--5--5--|
    --3----3--3--3--------3--3--3--3--3--3--3--3--|
    ----------------------------------------------|
    
    
      G5                                           
    ----------------------------------------------|
    ----------------------------------------------|
    ----------------------------------------------|
    --5----5--5--5--------5--5--5--5--5--5--5--5--|
    --5----5--5--5--------5--5--5--5--5--5--5--5--|
    --3----3--3--3--------3--3--3--3--3--3--3--3--|
    
    
      A5                                           
    ----------------------------------------------|
    ----------------------------------------------|
    ----------------------------------------------|
    --7----7--7--7--------7--7--7--7--7--7--7--7--|
    --7----7--7--7--------7--7--7--7--7--7--7--7--|
    --5----5--5--5--------5--5--5--5--5--5--5--5--|
    
    
      F5                  G5                                                 
    ----------------------------------------------||------------------------|
    ----------------------------------------------||------------------------|
    ----------------------------------------------||*-----------------------|
    --3----3--3--3--------5--5--5--5--5--5--5--5--||*----------0----0--2----|
    --3----3--3--3--------5--5--5--5--5--5--5--5--||---3----3---------------|
    --1----1--1--1--------3--3--3--3--3--3--3--3--||------------------------|
    
    
                                                                              
    -----------------------|-----------------------|------------------------||
    -----------------------|-----------------------|------------------------||
    -----------------------|-----------------------|-----------------------*||
    ----------0----0--2----|----------0----0--2----|----------2----2--0----*||
    -----------------------|--0----0---------------|------------------------||
    --3----3---------------|-----------------------|--1----1----------------||
    
    
      C5                        G5                        A5                      
    -------------------------|-------------------------|-------------------------|
    -------------------------|-------------------------|-------------------------|
    --5----------------------|-------------------------|-------------------------|
    --5----------------------|--5----------------------|--7----------------------|
    --3----3--3--3--3--3--3--|--5----------------------|--7----------------------|
    -------------------------|--3----3--3--3--3--3--3--|--5----5--5--5--5--5--5--|
    
    
      F5                        C5                        G5                      
    -------------------------|-------------------------|-------------------------|
    -------------------------|-------------------------|-------------------------|
    -------------------------|--5----------------------|-------------------------|
    --3----------------------|--5----------------------|--5----------------------|
    --3----------------------|--3----3--3--3--3--3--3--|--5----------------------|
    --1----1--1--1--1--1--1--|-------------------------|--3----3--3--3--3--3--3--|
    
    
      A5                        F5                          C5                    
    -------------------------|-------------------------||------------------------|
    -------------------------|-------------------------||------------------------|
    -------------------------|-------------------------||*--5----5--5----5--5----|
    --7----------------------|--3----------------------||*--5----5--5----5--5----|
    --7----------------------|--3----------------------||---3----3--3----3--3----|
    --5----5--5--5--5--5--5--|--1----1--1--1--1--1--1--||------------------------|
    
    
      G5                      A5                      F5                      
    -----------------------|-----------------------|------------------------||
    -----------------------|-----------------------|------------------------||
    -----------------------|-----------------------|-----------------------*||
    --5----5--5----5--5----|--7----7--7----7--7----|--3----3--3----3--3----*||
    --5----5--5----5--5----|--7----7--7----7--7----|--3----3--3----3--3-----||
    --3----3--3----3--3----|--5----5--5----5--5----|--1----1--1----1--1-----||
    
    
      C5                                           
    ----------------------------------------------|
    ----------------------------------------------|
    --5----5--5--5--------5--5--5--5--5--5--5--5--|
    --5----5--5--5--------5--5--5--5--5--5--5--5--|
    --3----3--3--3--------3--3--3--3--3--3--3--3--|
    ----------------------------------------------|
    
    
      G5                                           
    ----------------------------------------------|
    ----------------------------------------------|
    ----------------------------------------------|
    --5----5--5--5--------5--5--5--5--5--5--5--5--|
    --5----5--5--5--------5--5--5--5--5--5--5--5--|
    --3----3--3--3--------3--3--3--3--3--3--3--3--|
    
    
      A5                                           
    ----------------------------------------------|
    ----------------------------------------------|
    ----------------------------------------------|
    --7----7--7--7--------7--7--7--7--7--7--7--7--|
    --7----7--7--7--------7--7--7--7--7--7--7--7--|
    --5----5--5--5--------5--5--5--5--5--5--5--5--|
    
    
      F5                                           
    ----------------------------------------------|
    ----------------------------------------------|
    ----------------------------------------------|
    --3----3--3--3--------3--3--3--3--3--3--3--3--|
    --3----3--3--3--------3--3--3--3--3--3--3--3--|
    --1----1--1--1--------1--1--1--1--1--1--1--1--|
    
    
    
    
    
      A5                                           
    ----------------------------------------------|
    ----------------------------------------------|
    ----------------------------------------------|
    --7----7--7--7--------7--7--7--7--7--7--7--7--|
    --7----7--7--7--------7--7--7--7--7--7--7--7--|
    --5----5--5--5--------5--5--5--5--5--5--5--5--|
    
    
      F5                  G5                                                     
    ----------------------------------------------|----|----|----|----|----|----|
    ----------------------------------------------|----|----|----|----|----|----|
    ----------------------------------------------|----|----|----|----|----|----|
    --3----3--3--3--------5--5--5--5--5--5--5--5--|----|----|----|----|----|----|
    --3----3--3--3--------5--5--5--5--5--5--5--5--|----|----|----|----|----|----|
    --1----1--1--1--------3--3--3--3--3--3--3--3--|----|----|----|----|----|----|
    
    
                                                                
    ----|----||------------------------|-----------------------|
    ----|----||------------------------|-----------------------|
    ----|----||*-----------------------|-----------------------|
    ----|----||*----------0----0--2----|----------0----0--2----|
    ----|----||---3----3---------------|-----------------------|
    ----|----||------------------------|--3----3---------------|
    
    
                                                    3x                    
    -----------------------|------------------------||-------------------|
    -----------------------|------------------------||-------------------|
    -----------------------|-----------------------*||--5----------------|
    ----------0----0--2----|----------2----2--0----*||--5----------------|
    --0----0---------------|------------------------||--3----------------|
    -----------------------|--1----1----------------||-------------------|
    
    
                        
    ------------------||
    ------------------||
    ------------------||
    ------------------||
    ------------------||
    ------------------||


    Comente
    user 300 caracteres restantes. Enviar

    Todas as letras de blink-182

    Publicidade
    Notícias
    Mais notícias »
    Hot Spot
    Top Músicas do Vagalume
    Top 100 »

    As informações deste site são postadas integralmente pelos usuários. É importante dizer que é possível que os dados estejam desatualizados ou incorretos, sendo assim, o Vagalume exime-se de qualquer responsabilidade sobre as informações publicadas.Caso haja interesse em remover ou alterar alguma informação, entre em contato conosco.


    É permitida somente a visualização no site das letras de músicas encontradas aqui, vedada sua reprodução através de quaisquer outros meios (Lei 9610/98).Todas as letras de músicas são propriedade dos seus respectivos autores e divulgadas somente para fins educacionais.All lyrics are property and copyright of their owners. All lyrics are provided for educational purposes only.