Muito mais que só letras de músicas

  • Vagalume
  • A-Z
  • Estilos
  • Top 100
  • Playlists
  • Hot Spots
  • Notícias
  • PLAY

    Instrumento:
    Riff 1
    Clean
    F C G
    e---1----------------------3--------------------3--------------------3
    B---1----------------------5--------------------3--------------------3
    G---2-------0h2p0----------5--------0h2p0-------4--------0h2p0-------4
    D---3--0--2-------3p2p0----5--0--2-------3p2p0--5--0--2-------3p2p0--5
    A---3----------------------3--------------------5--------------------5
    E---1-------------------------------------------3--------------------3
    This is both the intro riff and the chorus riff, and the chord
    structure also does for the solo
    the verse riff goes like this
    C F G
    e----3---------------1
    B----5---------------1
    G----5---------------2
    D----5---------------3--------5
    A----3---------------3--------5----------------------1--1
    E--------------------1--------3--1--3--1--3--1--3--1
    there are two guitars playing at this point, with the acoustic playing
    the above riff, and an electric just playing the chords
    Lyrics
    C F G C F G
    i'm more afraid of living than i am scared to die


    Comente
    user 300 caracteres restantes. Enviar

    Todas as letras de Ben Harper

    Publicidade
    Notícias
    Mais notícias »
    Hot Spot
    Top Músicas do Vagalume
    Top 100 »

    As informações deste site são postadas integralmente pelos usuários. É importante dizer que é possível que os dados estejam desatualizados ou incorretos, sendo assim, o Vagalume exime-se de qualquer responsabilidade sobre as informações publicadas.Caso haja interesse em remover ou alterar alguma informação, entre em contato conosco.


    É permitida somente a visualização no site das letras de músicas encontradas aqui, vedada sua reprodução através de quaisquer outros meios (Lei 9610/98).Todas as letras de músicas são propriedade dos seus respectivos autores e divulgadas somente para fins educacionais.All lyrics are property and copyright of their owners. All lyrics are provided for educational purposes only.