Muito mais que só letras de músicas

  • Vagalume
  • A-Z
  • Estilos
  • Top 100
  • Playlists
  • Hot Spots
  • Notícias
  • PLAY

    Instrumento:
    Chords:
    D-xx0232
    C-x32033
    G-320033
    Bm-x24432
    A-x02220
    
    Intro:
    
       D         -  C           -  G
    E---------2-3-------------------------------0---------
    B-----------------------3-1-0----------------------3--
    G----2---------------0----------------0---------0-----
    D--0--------------------------------0---0-------------
    A---------------3-------------------------------------
    E ------------------------------3---------------------
    
    
       D         -  C        -  G
    E--------2-----------0--------------------3-
    B------3---3-------3---3------------3-------
    G--------------------------------0----0-----
    D--0----------------------------------------
    A---------------3---------------------------
    E --------------------------3---------------
    
    We can call this the bridge,it's at the end of each verse:
         Bm             - A
    E--------------0----------------------0------
    B-----------2-----2-----------2--2/3-----2---
    G--------0------------------2----------------
    D-----4-------------------2------------------
    A--2------------------0----------------------
    E--------------------------------------------
     
    
    Now the chords:
    D     C     G                 D
    dear matthew I like you a lot I realize you're in a 
      C                       G             Bm    A
    relationship with someone right now and I respect that 
    D                   C                        G
    I would like you to know that if you're ever single in the future
            D            C              G
    and you want to come visit me in california
    D                           C
    I would be open to spending time with you and  
                            G             Bm               A
    finding out how old you were when you wrote your first song
    
    
    Play the rest just like that:
    
    dear jonathan I liked you too much I used to be attracted 
    to boys who would lie to me and think solely about themselves 
    and you were plenty self-destructive for my taste at the time 
    I used to say the more tragis the better the truth is
    whenever I think of the early 90's your face comes up with 
    a vengeance like it was yesterday
    
    dear terrance I love you muchly you've been nothing 
    but open hearted and emotionally available and supportive
    and nurturing and consummately there for me 
    I kept drawing you in and pushing you away I remember
    how beautiful it was to fall asleep on your couch 
    and cry in front of you for the first time you were the best platform 
    from which to jump beyond myself what was wrong with me
    
    dear marcus you rocked my world you had a charismatic way 
    about you with the women and you got me
    seriously thinking about spirituality and you wouldn't 
    let me get away with kicking my own ass but I could never really feel
    relaxed and looked out for around you though anAre You Still Mad
    #----------------------------------PLEASE NOTE---------------------------------#
    #This file is the author's own work and represents their interpretation of the #
    #song. You may only use this file for private study, scholarship, or research. #
    #------------------------------------------------------------------------------#
    
    
    Author/Artist: Alanis Morissette
    
    Title: Are You Still Mad
    
    Album: Supposed Former Infatuation Junkie 
    Transcribed by: Amy Kendall
    
     
    This is a fairly basic song. 
    All the fills are the same rhythm as the introduction.
    
    C#
    e-|---2-1------|---2-1------|
    B-|-------3----|-------3----|
    G-|-1----------|-1----------|
    D-|------------|------------|
    A-|------------|------------|
    E-|------------|------------|
    intro
    Chorus C# B F# C# Verse C#
    
     
    C#
    e-|---2-1------|---2-1------|---2-1------|---2-1-----
    B-|-------3----|-------3----|-------3----|-------3---
    G-|-1----------|-1----------|-1----------|-1---------
    D-|------------|------------|------------|-----------
    A-|------------|------------|------------|-----------
    E-|------------|------------|------------|-----------
    
    are you still mad {out of bed are you still mad {ultimatums
    
    
    C#
    e-|---2-1------|---2-1------|---2-1------|---2-1-----
    B-|-------3----|-------3----|-------3----|-------3---
    G-|-1----------|-1----------|-1----------|-1---------
    D-|------------|------------|------------|-----------
    A-|------------|------------|------------|-----------
    E-|------------|------------|------------|-----------
    
    are you still mad{all}{male friends}are you still mad {problems with everybody}
    
    This is how the chorus goes:
    
         C# strum   B strum     F# C# strum  C# strum   B strum F# C# strum
    e-|-----4---------2----------2--4---------4---------2--------2--4-------
    B-|-----6---------4----------2--6---------6---------4--------2--6-------
    G-|-----6---------4----------3--6---------6---------4--------3--6-------
    D-|-----6---------4----------4--6---------6---------4--------4--6-------
    A-|-----4---------2----------4--4---------4---------2--------4--4-------
    E-|-----x---------x----------2--x---------x---------x--------2--x-------
    of course you are (you are) of course you are (you are)
    
    4 ARE YOU STILL MAD (4:03)
    are you still mad I kicked you out of bed?
    are you still mad I gave you ultimatums?
    are you still mad I compared you to all
    my forty year old male friends?
    are you still mad I shared our problems
    with everybody?
    
    2 bar fillin
    
    are you still mad I had an emotional affair?
    are you still mad I tried to mold you into
    who I wanted you to be?
    are you still mad I didn't trust your intentions?
    of course you are
    of course you are
    
    are you still mad that I flirted wildly?
    are you still mad I had a tendency to mother you?
    are you still mad that I had one foot out of the door?
    are you still mad that we slept together even after
    we had ended it?
    of course you are
    of course you are
    
    4 bar fill
    are you still mad I wore the pants most of the time?
    are you still mad that I seemed to focus
    only on your potential?
    are you still mad that I threw in the towel?
    are you still mad that I gave up long before you did?
    of course you are
    of course you are
    
    8 bar outro
    d that stopped 
    us from going any further than we did
    and it's kinda too bad becasue we could've had much more fun
    
    dear lou we learned so much I realize we won't be
    able to talk for some time and I understand that as I do you
    the long distance thing was the hardest and we did 
    as well as we could we were together during a very tumultuous time
    in our lives I will always have your back
    and be curious about you about your career about your whereabout
    


    Comente
    user 300 caracteres restantes. Enviar

    Todas as letras de Alanis Morissette
    Escute Também

    Publicidade
    Notícias
    Mais notícias »
    Hot Spot
    Top Músicas do Vagalume
    Top 100 »

    As informações deste site são postadas integralmente pelos usuários. É importante dizer que é possível que os dados estejam desatualizados ou incorretos, sendo assim, o Vagalume exime-se de qualquer responsabilidade sobre as informações publicadas.Caso haja interesse em remover ou alterar alguma informação, entre em contato conosco.


    É permitida somente a visualização no site das letras de músicas encontradas aqui, vedada sua reprodução através de quaisquer outros meios (Lei 9610/98).Todas as letras de músicas são propriedade dos seus respectivos autores e divulgadas somente para fins educacionais.All lyrics are property and copyright of their owners. All lyrics are provided for educational purposes only.