Muito mais que só letras de músicas

  • Vagalume
  • A-Z
  • Estilos
  • Top 100
  • Playlists
  • Hot Spots
  • Notícias
  • PLAY

    Instrumento:
    -======-
    
    Intro: [Riff 1, Riff 2(2x)]
    
    Riff 1:
    E ----------------------------2-------------------------
    B --8---------10-----8--7--8--3--------3-------3--------
    G --7---7--7--7---7--7--7--7--2-------------------------
    D --0-------------------------0---3>4-----3>4-----3--0--
    A ------------------------------------------------------
    E ------------------------------------------------------
    
    E ----------------------------2-----
    B --8---------10-----8--7--8--3-----
    G --7---7--7--7---7--7--7--7--2-----
    D --0-------------------------0-----
    A ----------------------------------
    E ----------------------------------
    
    Riff 2:
    E --3----3-3--3--3----3---3--2-----3-3--3--2----3----2---
    B --3----3-3--3--3----3---3--3-----3-3--3--3----3----3---
    G --0-%--0-0--0--0-%--0-%-0--2--%--0-0--0--2-%--0-%--2-%-
    D --0----2-2--2--0----2---0--0-----0-0--0--0----0----0---
    A --2----3-3--3--2----3---2--------2-2--2-------2--------
    E --3------------3--------3--------3-3--3-------3--------
    
    Riff 2 (3x)
    She was a fast machine
    She kept her motor clean
    She was the best damn woman I had ever seen
    She had the sightless eyes
    Telling me no lies
    Knockin' me out with those American thighs
    Taking more than her share
    Had me fighting for air
    She told me to come but I was already there
    
    Riff 3
    E --3----3-3--3--3----3---3--2--2-2-2-2-2-2--2-2-3-3-3-3--
    B --3----3-3--3--3----3---3--3--3-3-3-3-3-3--3-3-3-3-3-3--
    G --0-%--0-0--0--0-%--0-%-0--2--2-2-2-2-2-2--2-2-2-2-2-2--
    D --0----2-2--2--0----2---0--0--0-0-0-0-0-0--0-0-0-0-0-0--
    A --2----3-3--3--2----3---2-------------------------------
    E --3------------3--------3-------------------------------
    
    Riff 3
    'Cause the walls start shaking
    The earth was quaking
    My mind was aching
    And we were making it and you -
    
    CHORUS:
    
    Riff 4
    E ----3----------------------------2------------------------
    B ----3-----------3-----3----------3----------3------3------
    G ----0-%-----------0-----0----2---2------------0------0----
    D ----0---------------------0----0-0---------------------0--
    A ----2----0-2-3-----2-----------------0-2-3------2---------
    E -3--3-----------------------------------------------------
    
    Riff 4 (2x)
    Shook me all night long
    Yeah you shook me all night long
     
    Riff 2 (3x)
    Working double time
    On the seduction line
    She was one of a kind, she's just mine all mine
    She wanted no applause
    Just another course
    Made a meal out of me and came back for more
    Had to cool me down
    To take another round
    Now I'm back in the ring to take another swing
    
    Riff 3
    'Cause the walls were shaking
    The earth was quaking
    My mind was aching
    And we were making it and you 
    
    CHORUS
    
    Riff 5
    E ----3------------------------2-2-3-3-3-2--3-3-3--
    B ----3-----------3-----3------3-3-3-3-3-3--3-3-3--
    G ----0-%-----------0-----0----2-2-2-2-2-2--2-2-2--
    D ----0---------------------0--0-0-0-0-0-0--0-0-0--
    A ----2----0-2-3-----2-----------------------------
    E -3--3--------------------------------------------
    
    Riff 4 (2x)
    And knocked me out and then you
    Shook me all night long
    You got me shakin' and you
    Shook me all night long
    
    Riff 5
    Yeah you shook me
    Well you took me
    
    (Solo)
    
    Riff 4 (várias vezes)
    You reall took me and you
    Shook me all night long
    Ooooh you
    Shook me all night long
    Yeah, yeah, you
    Shook me all night long
    Your really took me and you
    Yeah you shook me, yeah you shook me
    All night long
    
    
    ---------------------------------------
    Legenda:
    > :  Hammer on
    % :  Pausa
    
    Contribuição: Fabiana(fabianarossi@zipmail.com.br)
    
     
    
    
    
    
    
    
    Versão 2
    -======-
    
    Comentários, dúvidas ou correções(Any comments, questions or corrections)...
    
    
    e|-3----53-3---3-2----2-------2-------------3--5-3-3---3-2----2--
    B|-3----3-----3-----3--3-------3-------3-----3--3-----3-----3--3--
    G|-0-------------------2-------2-------2-----------------------2--
    D|-------------------------3/4*-----3/43/4-0---------------------
    A|-------------------0---------------------------------------0----
    E|----------------------------------------------------------------
    
    * = toque esse slide com o 5º dedo
    / = slide
    
    
    ( ..G..C,G,C,G,D..G,D,G,D..)Repete 6 vezes
    e toca o último riff( ..G..C,G,C,G,D..) 
    
    :
     G              C   G     D
    "You ..shock me all night long"
    
    e|-------------------3----
    B|-------3-----3-----3----
    G|---------0-----0---0----
    D|-------------------0----
    A|-0-2-3-----2-----0-2----
    E|-------------------3----
    
    (Repete 2 vezes)
    
    
    
    (Repete 4 vezes)
    
    ... G                    D
        "  Yeahh you shock me. ...yeahh you shock meee.."
    
    
    (O RIFF do solo é praticamente: G..G,C,G,D – até o fim do solo)
    
    e|--------3-------------------|------------------------------
    B|---------3-6----------------|------------------6-6-----8-8-
    G|--5b--------5b--3-----------|----3-0---3----5/7-----7/9----
    D|-----------------5-5---3----|--------5---------------------
    A|------------------------5-5-|-3----------------------------
    E|----------------------------|--5---------------------------..
    
    
    e|----------10----------8----------------
    B|---8-10/12---10b-8------10/11-8---8----
    G|-9------------------9-----------9---(8)
    D|---------------------------------------
    A|---------------------------------------
    E|---------------------------------------..
    
    e|-/15-----151315-----------------13------13------------------
    B|---------------13b-----13--13/15---13/15---1513----13--13---
    G|-------------------1512—-15--------------------1512--15--15-
    D|------------------------------------------------------------
    A|------------------------------------------------------------
    E|------------------------------------------------------------..
    
    e|-----18/20-18----------------------------------------
    B|--15-----------22b-20-22-20-1818b--201820------------
    G|-----------------------------------------17b-1517/19-
    D|-----------------------------------------------------
    A|-----------------------------------------------------
    E|-----------------------------------------------------..
    
    e|---------------------
    B|---19--1919-21/23-19-
    G|-20--20--------------
    D|---------------------
    A|---------------------
    E|---------------------You really took me and you...
    
    (Repete 4 vezes)
                    
     (Repete 2 vezes)
    
             "Yeahh you shock me.."
    e|-------------------2----
    B|-------3-----3-----3----
    G|---------0-----0---2----
    D|-------------------0----
    A|-0-2-3-----2-----0-0----
    E|-------------------x----
    
    
    D
    "...aaall night long"
    
    ==================================================================


    Comente
    user 300 caracteres restantes. Enviar

    Todas as letras de AC/DC

    Publicidade
    Notícias
    Mais notícias »
    Hot Spot
    Top Músicas do Vagalume
    Top 100 »

    As informações deste site são postadas integralmente pelos usuários. É importante dizer que é possível que os dados estejam desatualizados ou incorretos, sendo assim, o Vagalume exime-se de qualquer responsabilidade sobre as informações publicadas.Caso haja interesse em remover ou alterar alguma informação, entre em contato conosco.


    É permitida somente a visualização no site das letras de músicas encontradas aqui, vedada sua reprodução através de quaisquer outros meios (Lei 9610/98).Todas as letras de músicas são propriedade dos seus respectivos autores e divulgadas somente para fins educacionais.All lyrics are property and copyright of their owners. All lyrics are provided for educational purposes only.