Muito mais que só letras de músicas

  • Vagalume
  • A-Z
  • Estilos
  • Top 100
  • Playlists
  • Hot Spots
  • Notícias
  • PLAY

    Instrumento:
    3 Doors Down
    
    Tom: C
    Capotraste na 1ª casa
    Intro: Am  F5  G
    
       Am                            F5
    E|------------------------------------------
    B|-------2-----1-----1---2------------------
    G|-----3---3-----3-----3---3----------------
    D|---3-------3-----3---------3---------4----
    A|-1-------------------------------1h4---4--
    E|-----------------------------4-2---------2
       G
    E|------------------------------------------
    B|------------------------------------------
    G|-------5----------------------------------
    D|-----6---6--------------------------------
    A|---6--------------------------------------
    E|-4----------------------------------------
    
    Primeira Parte:
               Am
    A hundred days have made me older Since
         G                                 Am   F5 G
    the last time that I saw your  pretty face,
                Am
    A thousand lies have made me colder,
           G                                  Am   F5 G
    And I don't think I can look at this the same
    Am                             G
       And all the miles that separate,
    Am                                F5              G
       They Disappear now when I'm dreaming of your face
    
    Dedilhado - Primeira Parte (3x):
       Am
    E|------------------------------------------
    B|-------2-----1-----1---2------------------
    G|-----3---3-----3-----3---3----------------
    D|---3-------3-----3---------3--------------
    A|-1----------------------------------------
    E|------------------------------------------
    
       G
    E|------------------------------------------
    B|-------1-----2-----1---2h4----------------
    G|-----1---1-----1-----1--------------------
    D|---1-------1-----1------------------------
    A|------------------------------------------
    E|-4----------------------------------------
    
       Am                            F5
    E|------------------------------------------
    B|-------2-----1-----1---2------------------
    G|-----3---3-----3-----3---3----------------
    D|---3-------3-----3---------3---------4----
    A|-1-------------------------------1h4---4--
    E|-----------------------------4-2---------2
    
    (última repetição)
       G
    E|------------------------------------------
    B|------------------------------------------
    G|---------5--------------------------------
    D|-----6-----6------------------------------
    A|---6---6----------------------------------
    E|-4----------------------------------------
    
    Refrão:
    C9
      I'm here without you baby,
    G                                Am
      But you're still on my lonely mind
                           F5
    I think about you baby and I dream
      G                C9
    about you all the time
                              G
    I'm here without you baby,
                                     Am
    But you're still with me in my dreams,
           F5              G
    And tonight, there's only you and me
    
    Dedilhado - Refrão:
       C9                                G
    E|-------------1---------2-1h2p1-------------
    B|-------4-----------4-----------4-2-1-------
    G|-----1---1-----1-----1---------------------
    D|---3-------3-----3-------------------------
    A|-4-----------------------------------------
    E|-----------------------------------4-------
    
                       Am
    E|---------4-2-1-----------------------------
    B|-----1---------4-2------2-----4-----2-----4
    G|---1-------------3----3---3-----3-----3----
    D|-1-----1---------3--3-------3-----3-----3--
    A|-----------------1-------------------------
    E|-------------------------------------------
    
           F5          G
    E|-------------------------------------------
    B|-------------------------------------------
    G|-3----------------------5------------------
    D|---3-------4----------6---6----------------
    A|-------1h4---4------6-------6--------------
    E|-----2---------2--4------------------------
    
    Segunda Parte:
         Am
    The miles just keep rollin',
             G                             Am    F  G
    As the people leave their way to say hello
                     Am
    I've heard this life is overrated,
           G                              Am      F    G
    But I hope that it gets better as we go   oh yeah yeah
    
    Refrão:
    C9
      I'm here without you baby,
    G                                Am
      But you're still on my lonely mind
                           F5
    I think about you baby and I dream
      G                C9
    about you all the time
                              G
    I'm here without you baby,
                                     Am
    But you're still with me in my dreams,
           F5              G
    And tonight, there's only you and me
    
    Terceira Parte:
    Am7(9)                  C9
          Everything I know,
                    G6/D
    And anywhere I go
                               F5(7M/9)/C
    It gets hard but it won't take away my love,
    Am7(9)                 C9
    And when the last one falls,
                            G6/D
    when it's all said and done.
                               F5(7M/9)/C
    It gets hard but it won't take away,
                     C9   G6/D      Am7(9) F5(7M/9)/C G6/D
    my love, woo oh woooo ooooh  ou_ouoh
    
    Refrão:
    C9
      I'm here without you baby,
    G                                Am
      But you're still on my lonely mind
                           F5
    I think about you baby and I dream
      G                C9
    about you all the time
                              G
    I'm here without you baby,
                                     Am
    But you're still with me in my dreams,
              F5             G             C9 G6/D Am7(9)
    ...And tonight, there's only you and me
    
    Dedilhado - Final:
       F5           G            Am7(9)
    E|---------------------------1---------------
    B|---------------------------1---------------
    G|--------------------5------6---------------
    D|-------4----------6---6----6---------------
    A|---1h4---4------6-------6--1---------------
    E|-2---------2--4----------------------------


    Comente
    user 300 caracteres restantes. Enviar

    Todas as letras de 3 Doors Down

    Publicidade
    Notícias
    Mais notícias »
    Hot Spot
    Top Músicas do Vagalume
    Top 100 »

    As informações deste site são postadas integralmente pelos usuários. É importante dizer que é possível que os dados estejam desatualizados ou incorretos, sendo assim, o Vagalume exime-se de qualquer responsabilidade sobre as informações publicadas.Caso haja interesse em remover ou alterar alguma informação, entre em contato conosco.


    É permitida somente a visualização no site das letras de músicas encontradas aqui, vedada sua reprodução através de quaisquer outros meios (Lei 9610/98).Todas as letras de músicas são propriedade dos seus respectivos autores e divulgadas somente para fins educacionais.All lyrics are property and copyright of their owners. All lyrics are provided for educational purposes only.